  0
SECTION
  2
HEADER
  9
$ACADVER
  1
AC1015
  9
$ACADMAINTVER
 70
     6
  9
$DWGCODEPAGE
  3
ANSI_1254
  9
$INSBASE
 10
0.0
 20
0.0
 30
0.0
  9
$EXTMIN
 10
0.0
 20
0.0
 30
0.0
  9
$EXTMAX
 10
279.4
 20
215.9
 30
0.0
  9
$LIMMIN
 10
0.0
 20
0.0
  9
$LIMMAX
 10
279.4
 20
215.9
  9
$ORTHOMODE
 70
     0
  9
$REGENMODE
 70
     1
  9
$FILLMODE
 70
     1
  9
$QTEXTMODE
 70
     0
  9
$MIRRTEXT
 70
     1
  9
$LTSCALE
 40
1.0
  9
$ATTMODE
 70
     1
  9
$TEXTSIZE
 40
3.5
  9
$TRACEWID
 40
1.0
  9
$TEXTSTYLE
  7
Standard
  9
$CLAYER
  8
0
  9
$CELTYPE
  6
ByLayer
  9
$CECOLOR
 62
   256
  9
$CELTSCALE
 40
1.0
  9
$DISPSILH
 70
     0
  9
$DIMSCALE
 40
1.0
  9
$DIMASZ
 40
3.5
  9
$DIMEXO
 40
1.0
  9
$DIMDLI
 40
3.75
  9
$DIMRND
 40
0.0
  9
$DIMDLE
 40
0.0
  9
$DIMEXE
 40
1.0
  9
$DIMTP
 40
0.0
  9
$DIMTM
 40
0.0
  9
$DIMTXT
 40
3.5
  9
$DIMCEN
 40
2.5
  9
$DIMTSZ
 40
0.0
  9
$DIMTOL
 70
     0
  9
$DIMLIM
 70
     0
  9
$DIMTIH
 70
     1
  9
$DIMTOH
 70
     1
  9
$DIMSE1
 70
     0
  9
$DIMSE2
 70
     0
  9
$DIMTAD
 70
     1
  9
$DIMZIN
 70
     0
  9
$DIMBLK
  1

  9
$DIMASO
 70
     1
  9
$DIMSHO
 70
     1
  9
$DIMPOST
  1

  9
$DIMAPOST
  1

  9
$DIMALT
 70
     0
  9
$DIMALTD
 70
     3
  9
$DIMALTF
 40
0.0393700787
  9
$DIMLFAC
 40
1.0
  9
$DIMTOFL
 70
     1
  9
$DIMTVP
 40
0.0
  9
$DIMTIX
 70
     0
  9
$DIMSOXD
 70
     0
  9
$DIMSAH
 70
     0
  9
$DIMBLK1
  1

  9
$DIMBLK2
  1

  9
$DIMSTYLE
  2
ISO-25
  9
$DIMCLRD
 70
     0
  9
$DIMCLRE
 70
     0
  9
$DIMCLRT
 70
     0
  9
$DIMTFAC
 40
1.0
  9
$DIMGAP
 40
1.524
  9
$DIMJUST
 70
     0
  9
$DIMSD1
 70
     0
  9
$DIMSD2
 70
     0
  9
$DIMTOLJ
 70
     0
  9
$DIMTZIN
 70
     0
  9
$DIMALTZ
 70
     0
  9
$DIMALTTZ
 70
     0
  9
$DIMUPT
 70
     0
  9
$DIMDEC
 70
     2
  9
$DIMTDEC
 70
     2
  9
$DIMALTU
 70
     2
  9
$DIMALTTD
 70
     3
  9
$DIMTXSTY
  7
Standard
  9
$DIMAUNIT
 70
     0
  9
$DIMADEC
 70
     2
  9
$DIMALTRND
 40
0.0
  9
$DIMAZIN
 70
     0
  9
$DIMDSEP
 70
    44
  9
$DIMATFIT
 70
     3
  9
$DIMFRAC
 70
     0
  9
$DIMLDRBLK
  1

  9
$DIMLUNIT
 70
     2
  9
$DIMLWD
 70
    -2
  9
$DIMLWE
 70
    -2
  9
$DIMTMOVE
 70
     0
  9
$LUNITS
 70
     2
  9
$LUPREC
 70
     2
  9
$SKETCHINC
 40
1.0
  9
$FILLETRAD
 40
10.0
  9
$AUNITS
 70
     0
  9
$AUPREC
 70
     2
  9
$MENU
  1
.
  9
$ELEVATION
 40
0.0
  9
$PELEVATION
 40
0.0
  9
$THICKNESS
 40
0.0
  9
$LIMCHECK
 70
     0
  9
$CHAMFERA
 40
0.0
  9
$CHAMFERB
 40
0.0
  9
$CHAMFERC
 40
0.0
  9
$CHAMFERD
 40
0.0
  9
$SKPOLY
 70
     0
  9
$TDCREATE
 40
2459935.700499653
  9
$TDUCREATE
 40
2459935.575499653
  9
$TDUPDATE
 40
2459935.700499838
  9
$TDUUPDATE
 40
2459935.575499838
  9
$TDINDWG
 40
0.0000000116
  9
$TDUSRTIMER
 40
0.0000000116
  9
$USRTIMER
 70
     1
  9
$ANGBASE
 50
0.0
  9
$ANGDIR
 70
     0
  9
$PDMODE
 70
     0
  9
$PDSIZE
 40
-1.0
  9
$PLINEWID
 40
0.0
  9
$SPLFRAME
 70
     0
  9
$SPLINETYPE
 70
     6
  9
$SPLINESEGS
 70
     8
  9
$HANDSEED
  5
D2
  9
$SURFTAB1
 70
     6
  9
$SURFTAB2
 70
     6
  9
$SURFTYPE
 70
     6
  9
$SURFU
 70
     6
  9
$SURFV
 70
     6
  9
$UCSBASE
  2

  9
$UCSNAME
  2

  9
$UCSORG
 10
0.0
 20
0.0
 30
0.0
  9
$UCSXDIR
 10
1.0
 20
0.0
 30
0.0
  9
$UCSYDIR
 10
0.0
 20
1.0
 30
0.0
  9
$UCSORTHOREF
  2

  9
$UCSORTHOVIEW
 70
     0
  9
$UCSORGTOP
 10
0.0
 20
0.0
 30
0.0
  9
$UCSORGBOTTOM
 10
0.0
 20
0.0
 30
0.0
  9
$UCSORGLEFT
 10
0.0
 20
0.0
 30
0.0
  9
$UCSORGRIGHT
 10
0.0
 20
0.0
 30
0.0
  9
$UCSORGFRONT
 10
0.0
 20
0.0
 30
0.0
  9
$UCSORGBACK
 10
0.0
 20
0.0
 30
0.0
  9
$PUCSBASE
  2

  9
$PUCSNAME
  2

  9
$PUCSORG
 10
0.0
 20
0.0
 30
0.0
  9
$PUCSXDIR
 10
1.0
 20
0.0
 30
0.0
  9
$PUCSYDIR
 10
0.0
 20
1.0
 30
0.0
  9
$PUCSORTHOREF
  2

  9
$PUCSORTHOVIEW
 70
     0
  9
$PUCSORGTOP
 10
0.0
 20
0.0
 30
0.0
  9
$PUCSORGBOTTOM
 10
0.0
 20
0.0
 30
0.0
  9
$PUCSORGLEFT
 10
0.0
 20
0.0
 30
0.0
  9
$PUCSORGRIGHT
 10
0.0
 20
0.0
 30
0.0
  9
$PUCSORGFRONT
 10
0.0
 20
0.0
 30
0.0
  9
$PUCSORGBACK
 10
0.0
 20
0.0
 30
0.0
  9
$USERI1
 70
     0
  9
$USERI2
 70
     0
  9
$USERI3
 70
     0
  9
$USERI4
 70
     0
  9
$USERI5
 70
     0
  9
$USERR1
 40
0.0
  9
$USERR2
 40
0.0
  9
$USERR3
 40
0.0
  9
$USERR4
 40
0.0
  9
$USERR5
 40
0.0
  9
$WORLDVIEW
 70
     1
  9
$SHADEDGE
 70
     3
  9
$SHADEDIF
 70
    70
  9
$TILEMODE
 70
     1
  9
$MAXACTVP
 70
    64
  9
$PINSBASE
 10
0.0
 20
0.0
 30
0.0
  9
$PLIMCHECK
 70
     0
  9
$PEXTMIN
 10
1.0000000000E+20
 20
1.0000000000E+20
 30
1.0000000000E+20
  9
$PEXTMAX
 10
-1.0000000000E+20
 20
-1.0000000000E+20
 30
-1.0000000000E+20
  9
$PLIMMIN
 10
0.0
 20
0.0
  9
$PLIMMAX
 10
420.0
 20
297.0
  9
$UNITMODE
 70
     0
  9
$VISRETAIN
 70
     1
  9
$PLINEGEN
 70
     0
  9
$PSLTSCALE
 70
     1
  9
$TREEDEPTH
 70
  3020
  9
$CMLSTYLE
  2
Standard
  9
$CMLJUST
 70
     0
  9
$CMLSCALE
 40
20.0
  9
$PROXYGRAPHICS
 70
     1
  9
$MEASUREMENT
 70
     1
  9
$CELWEIGHT
370
    -1
  9
$ENDCAPS
280
     0
  9
$JOINSTYLE
280
     0
  9
$LWDISPLAY
290
     1
  9
$INSUNITS
 70
     4
  9
$HYPERLINKBASE
  1

  9
$STYLESHEET
  1

  9
$XEDIT
290
     1
  9
$CEPSNTYPE
380
     0
  9
$PSTYLEMODE
290
     1
  9
$FINGERPRINTGUID
  2
{6507f231-5b38-47e9-8da1-6e70892400da}
  9
$VERSIONGUID
  2
{FAEB1C32-E019-11D5-929B-00C0DF256EC4}
  9
$EXTNAMES
290
     1
  9
$PSVPSCALE
 40
0.0
  9
$OLESTARTUP
290
     0
  0
ENDSEC
  0
SECTION
  2
CLASSES
  0
CLASS
  1
ACDBDICTIONARYWDFLT
  2
AcDbDictionaryWithDefault
  3
ObjectDBX Classes
 90
        0
280
     0
281
     0
  0
CLASS
  1
VISUALSTYLE
  2
AcDbVisualStyle
  3
ObjectDBX Classes
 90
     4095
280
     0
281
     0
  0
CLASS
  1
MATERIAL
  2
AcDbMaterial
  3
ObjectDBX Classes
 90
     1153
280
     0
281
     0
  0
CLASS
  1
SCALE
  2
AcDbScale
  3
ObjectDBX Classes
 90
     1153
280
     0
281
     0
  0
CLASS
  1
TABLESTYLE
  2
AcDbTableStyle
  3
ObjectDBX Classes
 90
     4095
280
     0
281
     0
  0
CLASS
  1
MLEADERSTYLE
  2
AcDbMLeaderStyle
  3
ACDB_MLEADERSTYLE_CLASS
 90
     4095
280
     0
281
     0
  0
CLASS
  1
SUN
  2
AcDbSun
  3
SCENEOE
 90
     1153
280
     0
281
     0
  0
CLASS
  1
ACDBPLACEHOLDER
  2
AcDbPlaceHolder
  3
ObjectDBX Classes
 90
        0
280
     0
281
     0
  0
CLASS
  1
LAYOUT
  2
AcDbLayout
  3
ObjectDBX Classes
 90
        0
280
     0
281
     0
  0
ENDSEC
  0
SECTION
  2
TABLES
  0
TABLE
  2
VPORT
  5
8
330
0
100
AcDbSymbolTable
 70
     1
  0
VPORT
  5
29
330
8
100
AcDbSymbolTableRecord
100
AcDbViewportTableRecord
  2
*Active
 70
     0
 10
0.0
 20
0.0
 11
1.0
 21
1.0
 12
139.7
 22
107.95
 13
0.0
 23
0.0
 14
10.0
 24
10.0
 15
10.0
 25
10.0
 16
0.0
 26
0.0
 36
1.0
 17
0.0
 27
0.0
 37
0.0
 40
215.9
 41
1.2941176471
 42
50.0
 43
0.0
 44
0.0
 50
0.0
 51
0.0
 71
     0
 72
  2000
 73
     1
 74
     3
 75
     0
 76
     0
 77
     0
 78
     0
281
     0
 65
     1
110
0.0
120
0.0
130
0.0
111
1.0
121
0.0
131
0.0
112
0.0
122
1.0
132
0.0
 79
     0
146
0.0
  0
ENDTAB
  0
TABLE
  2
LTYPE
  5
5
330
0
100
AcDbSymbolTable
 70
     6
  0
LTYPE
  5
14
330
5
100
AcDbSymbolTableRecord
100
AcDbLinetypeTableRecord
  2
ByBlock
 70
     0
  3

 72
    65
 73
     0
 40
0.0
  0
LTYPE
  5
15
330
5
100
AcDbSymbolTableRecord
100
AcDbLinetypeTableRecord
  2
ByLayer
 70
     0
  3

 72
    65
 73
     0
 40
0.0
  0
LTYPE
  5
16
330
5
100
AcDbSymbolTableRecord
100
AcDbLinetypeTableRecord
  2
Continuous
 70
     0
  3
Solid line
 72
    65
 73
     0
 40
0.0
  0
LTYPE
  5
6E
330
5
100
AcDbSymbolTableRecord
100
AcDbLinetypeTableRecord
  2
HIDDEN
 70
     0
  3
Hidden __ __ __ __ __ __ __ __ __ __ __ __ __ __
 72
    65
 73
     2
 40
1.905
 49
1.27
 74
     0
 49
-0.635
 74
     0
  0
LTYPE
  5
6F
330
5
100
AcDbSymbolTableRecord
100
AcDbLinetypeTableRecord
  2
PHANTOM
 70
     0
  3
Phantom ______  __  __  ______  __  __  ______
 72
    65
 73
     6
 40
12.7
 49
6.35
 74
     0
 49
-1.27
 74
     0
 49
1.27
 74
     0
 49
-1.27
 74
     0
 49
1.27
 74
     0
 49
-1.27
 74
     0
  0
LTYPE
  5
70
330
5
100
AcDbSymbolTableRecord
100
AcDbLinetypeTableRecord
  2
CENTER
 70
     0
  3
Center ____ _ ____ _ ____ _ ____ _ ____ _ ____
 72
    65
 73
     4
 40
10.16
 49
6.35
 74
     0
 49
-1.27
 74
     0
 49
1.27
 74
     0
 49
-1.27
 74
     0
  0
LTYPE
  5
71
330
5
100
AcDbSymbolTableRecord
100
AcDbLinetypeTableRecord
  2
CENTERX2
 70
     0
  3
Center (2x) ________  __  ________  __  _____
 72
    65
 73
     4
 40
20.32
 49
12.7
 74
     0
 49
-2.54
 74
     0
 49
2.54
 74
     0
 49
-2.54
 74
     0
  0
LTYPE
  5
72
330
5
100
AcDbSymbolTableRecord
100
AcDbLinetypeTableRecord
  2
DOT2
 70
     0
  3
Dot (.5x) ........................................
 72
    65
 73
     2
 40
0.635
 49
0.0
 74
     0
 49
-0.635
 74
     0
  0
ENDTAB
  0
TABLE
  2
LAYER
  5
2
330
0
100
AcDbSymbolTable
 70
    17
  0
LAYER
  5
10
330
2
100
AcDbSymbolTableRecord
100
AcDbLayerTableRecord
  2
0
 70
     0
 62
     7
  6
Continuous
370
    -3
390
F
  0
LAYER
  5
73
330
2
100
AcDbSymbolTableRecord
100
AcDbLayerTableRecord
  2
FORMAT
 70
     0
 62
     7
  6
Continuous
370
    -3
390
F
  0
LAYER
  5
74
330
2
100
AcDbSymbolTableRecord
100
AcDbLayerTableRecord
  2
YARDIMCI_GEOMETRI
 70
     0
 62
    -6
  6
Continuous
290
     0
370
    -3
390
F
  0
LAYER
  5
75
330
2
100
AcDbSymbolTableRecord
100
AcDbLayerTableRecord
  2
SAYFA_CERCEVESI
 70
     0
 62
     7
  6
Continuous
370
    25
390
F
  0
LAYER
  5
76
330
2
100
AcDbSymbolTableRecord
100
AcDbLayerTableRecord
  2
ANTET
 70
     0
 62
     7
  6
Continuous
370
    -3
390
F
  0
LAYER
  5
77
330
2
100
AcDbSymbolTableRecord
100
AcDbLayerTableRecord
  2
OLCU
 70
     0
 62
   150
  6
Continuous
370
    -3
390
F
  0
LAYER
  5
78
330
2
100
AcDbSymbolTableRecord
100
AcDbLayerTableRecord
  2
METIN
 70
     0
 62
    96
  6
Continuous
370
    -3
390
F
  0
LAYER
  5
79
330
2
100
AcDbSymbolTableRecord
100
AcDbLayerTableRecord
  2
BALON
 70
     0
 62
     5
  6
Continuous
370
    -3
390
F
  0
LAYER
  5
7A
330
2
100
AcDbSymbolTableRecord
100
AcDbLayerTableRecord
  2
VURGU
 70
     0
 62
     7
  6
Continuous
370
    -3
390
F
  0
LAYER
  5
7B
330
2
100
AcDbSymbolTableRecord
100
AcDbLayerTableRecord
  2
SILIK
 70
     0
 62
     7
  6
Continuous
370
    -3
390
F
  0
LAYER
  5
7C
330
2
100
AcDbSymbolTableRecord
100
AcDbLayerTableRecord
  2
MODEL
 70
     0
 62
     7
  6
Continuous
370
    -3
390
F
  0
LAYER
  5
7D
330
2
100
AcDbSymbolTableRecord
100
AcDbLayerTableRecord
  2
DETAYLANDıRMA
 70
     0
 62
   190
  6
Continuous
370
    -3
390
F
  0
LAYER
  5
7E
330
2
100
AcDbSymbolTableRecord
100
AcDbLayerTableRecord
  2
TOLERANS
 70
     0
 62
   230
  6
Continuous
370
    -3
390
F
  0
LAYER
  5
7F
330
2
100
AcDbSymbolTableRecord
100
AcDbLayerTableRecord
  2
MERKEZ_CIZGILERI
 70
     0
 62
    30
  6
Continuous
370
    -3
390
F
  0
LAYER
  5
80
330
2
100
AcDbSymbolTableRecord
100
AcDbLayerTableRecord
  2
KESIT-DETAY_CIZGILERI
 70
     0
 62
     7
  6
Continuous
370
    -3
390
F
  0
LAYER
  5
81
330
2
100
AcDbSymbolTableRecord
100
AcDbLayerTableRecord
  2
\U+041E\U+0421\U+0415\U+0412\U+042B\U+0415
 70
     0
 62
     7
  6
Continuous
370
    -3
390
F
  0
LAYER
  5
82
330
2
100
AcDbSymbolTableRecord
100
AcDbLayerTableRecord
  2
\U+0412\U+041E\U+0414\U+042F\U+041D\U+042B\U+0415_\U+0417\U+041D\U+0410\U+041A\U+0418
 70
     0
 62
    11
  6
Continuous
370
    -3
390
F
  0
ENDTAB
  0
TABLE
  2
STYLE
  5
3
330
0
100
AcDbSymbolTable
 70
     1
  0
STYLE
  5
11
330
3
100
AcDbSymbolTableRecord
100
AcDbTextStyleTableRecord
  2
Standard
 70
     0
 40
0.0
 41
1.0
 50
0.0
 71
     0
 42
3.5
  3
txt
  4

  0
ENDTAB
  0
TABLE
  2
VIEW
  5
6
330
0
100
AcDbSymbolTable
 70
     0
  0
ENDTAB
  0
TABLE
  2
UCS
  5
7
330
0
100
AcDbSymbolTable
 70
     0
  0
ENDTAB
  0
TABLE
  2
APPID
  5
9
330
0
100
AcDbSymbolTable
 70
     1
  0
APPID
  5
12
330
9
100
AcDbSymbolTableRecord
100
AcDbRegAppTableRecord
  2
ACAD
 70
     0
  0
ENDTAB
  0
TABLE
  2
DIMSTYLE
  5
A
330
0
100
AcDbSymbolTable
 70
     1
100
AcDbDimStyleTable
  0
DIMSTYLE
105
27
330
A
100
AcDbSymbolTableRecord
100
AcDbDimStyleTableRecord
  2
ISO-25
 70
     0
 41
2.5
 42
0.625
 43
3.75
 44
1.25
 73
     0
 74
     0
 77
     1
 78
     8
140
2.5
141
2.5
143
0.0393700787
147
0.625
171
     3
172
     1
178
     0
271
     2
272
     2
274
     3
278
    44
283
     0
284
     8
340
11
  0
ENDTAB
  0
TABLE
  2
BLOCK_RECORD
  5
1
330
0
100
AcDbSymbolTable
 70
     3
  0
BLOCK_RECORD
  5
1F
330
1
100
AcDbSymbolTableRecord
100
AcDbBlockTableRecord
  2
*Model_Space
340
22
  0
BLOCK_RECORD
  5
1B
330
1
100
AcDbSymbolTableRecord
100
AcDbBlockTableRecord
  2
*Paper_Space
340
1E
  0
BLOCK_RECORD
  5
23
330
1
100
AcDbSymbolTableRecord
100
AcDbBlockTableRecord
  2
*Paper_Space0
340
26
  0
BLOCK_RECORD
  5
88
330
1
100
AcDbSymbolTableRecord
100
AcDbBlockTableRecord
  2
SW_CENTERMARKSYMBOL_0
340
0
102
{BLKREFS
331
93
102
}
  0
BLOCK_RECORD
  5
BB
330
1
100
AcDbSymbolTableRecord
100
AcDbBlockTableRecord
  2
SW_CENTERMARKSYMBOL_1
340
0
102
{BLKREFS
331
C6
102
}
  0
ENDTAB
  0
ENDSEC
  0
SECTION
  2
BLOCKS
  0
BLOCK
  5
20
330
1F
100
AcDbEntity
  8
0
100
AcDbBlockBegin
  2
*Model_Space
 70
     0
 10
0.0
 20
0.0
 30
0.0
  3
*Model_Space
  1

  0
ENDBLK
  5
21
330
1F
100
AcDbEntity
  8
0
100
AcDbBlockEnd
  0
BLOCK
  5
1C
330
1B
100
AcDbEntity
 67
     1
  8
0
100
AcDbBlockBegin
  2
*Paper_Space
 70
     0
 10
0.0
 20
0.0
 30
0.0
  3
*Paper_Space
  1

  0
ENDBLK
  5
1D
330
1B
100
AcDbEntity
 67
     1
  8
0
100
AcDbBlockEnd
  0
BLOCK
  5
24
330
23
100
AcDbEntity
  8
0
100
AcDbBlockBegin
  2
*Paper_Space0
 70
     0
 10
0.0
 20
0.0
 30
0.0
  3
*Paper_Space0
  1

  0
ENDBLK
  5
25
330
23
100
AcDbEntity
  8
0
100
AcDbBlockEnd
  0
BLOCK
  5
89
330
88
100
AcDbEntity
  8
0
100
AcDbBlockBegin
  2
SW_CENTERMARKSYMBOL_0
 70
     0
 10
0.0
 20
0.0
 30
0.0
  3
SW_CENTERMARKSYMBOL_0
  1

  0
LINE
  5
8B
330
88
100
AcDbEntity
  8
FORMAT
 62
     0
100
AcDbLine
 10
0.0
 20
0.0
 30
0.0
 11
0.0
 21
2.5
 31
0.0
  0
LINE
  5
8C
330
88
100
AcDbEntity
  8
FORMAT
 62
     0
100
AcDbLine
 10
0.0
 20
0.0
 30
0.0
 11
-2.5
 21
0.0
 31
0.0
  0
LINE
  5
8D
330
88
100
AcDbEntity
  8
FORMAT
 62
     0
100
AcDbLine
 10
0.0
 20
0.0
 30
0.0
 11
0.0
 21
-2.5
 31
0.0
  0
LINE
  5
8E
330
88
100
AcDbEntity
  8
FORMAT
 62
     0
100
AcDbLine
 10
0.0
 20
0.0
 30
0.0
 11
2.5
 21
0.0
 31
0.0
  0
LINE
  5
8F
330
88
100
AcDbEntity
  8
FORMAT
 62
     0
100
AcDbLine
 10
0.0
 20
5.0
 30
0.0
 11
0.0
 21
47.5
 31
0.0
  0
LINE
  5
90
330
88
100
AcDbEntity
  8
FORMAT
 62
     0
100
AcDbLine
 10
-5.0
 20
0.0
 30
0.0
 11
-47.5
 21
0.0
 31
0.0
  0
LINE
  5
91
330
88
100
AcDbEntity
  8
FORMAT
 62
     0
100
AcDbLine
 10
0.0
 20
-5.0
 30
0.0
 11
0.0
 21
-47.5
 31
0.0
  0
LINE
  5
92
330
88
100
AcDbEntity
  8
FORMAT
 62
     0
100
AcDbLine
 10
5.0
 20
0.0
 30
0.0
 11
47.5
 21
0.0
 31
0.0
  0
ENDBLK
  5
8A
330
88
100
AcDbEntity
  8
0
100
AcDbBlockEnd
  0
BLOCK
  5
BC
330
BB
100
AcDbEntity
  8
0
100
AcDbBlockBegin
  2
SW_CENTERMARKSYMBOL_1
 70
     0
 10
0.0
 20
0.0
 30
0.0
  3
SW_CENTERMARKSYMBOL_1
  1

  0
LINE
  5
BE
330
BB
100
AcDbEntity
  8
FORMAT
 62
     0
100
AcDbLine
 10
0.0
 20
0.0
 30
0.0
 11
0.0
 21
2.5
 31
0.0
  0
LINE
  5
BF
330
BB
100
AcDbEntity
  8
FORMAT
 62
     0
100
AcDbLine
 10
0.0
 20
0.0
 30
0.0
 11
-2.5
 21
0.0
 31
0.0
  0
LINE
  5
C0
330
BB
100
AcDbEntity
  8
FORMAT
 62
     0
100
AcDbLine
 10
0.0
 20
0.0
 30
0.0
 11
0.0
 21
-2.5
 31
0.0
  0
LINE
  5
C1
330
BB
100
AcDbEntity
  8
FORMAT
 62
     0
100
AcDbLine
 10
0.0
 20
0.0
 30
0.0
 11
2.5
 21
0.0
 31
0.0
  0
LINE
  5
C2
330
BB
100
AcDbEntity
  8
FORMAT
 62
     0
100
AcDbLine
 10
0.0
 20
5.0
 30
0.0
 11
0.0
 21
47.5
 31
0.0
  0
LINE
  5
C3
330
BB
100
AcDbEntity
  8
FORMAT
 62
     0
100
AcDbLine
 10
-5.0
 20
0.0
 30
0.0
 11
-47.5
 21
0.0
 31
0.0
  0
LINE
  5
C4
330
BB
100
AcDbEntity
  8
FORMAT
 62
     0
100
AcDbLine
 10
0.0
 20
-5.0
 30
0.0
 11
0.0
 21
-47.5
 31
0.0
  0
LINE
  5
C5
330
BB
100
AcDbEntity
  8
FORMAT
 62
     0
100
AcDbLine
 10
5.0
 20
0.0
 30
0.0
 11
47.5
 21
0.0
 31
0.0
  0
ENDBLK
  5
BD
330
BB
100
AcDbEntity
  8
0
100
AcDbBlockEnd
  0
ENDSEC
  0
SECTION
  2
ENTITIES
  0
LINE
  5
83
330
1F
100
AcDbEntity
  8
0
  6
Continuous
 62
     7
370
    25
100
AcDbLine
 10
103.6561525943
 20
65.5110902929
 30
0.0
 11
245.6561525943
 21
65.5110902929
 31
0.0
  0
LINE
  5
84
330
1F
100
AcDbEntity
  8
0
  6
Continuous
 62
     7
370
    25
100
AcDbLine
 10
245.6561525943
 20
155.5110902929
 30
0.0
 11
103.6561525943
 21
155.5110902929
 31
0.0
  0
CIRCLE
  5
85
330
1F
100
AcDbEntity
  8
0
  6
Continuous
 62
     7
370
    25
100
AcDbCircle
 10
103.6561525943
 20
110.5110902929
 30
0.0
 40
39.60000000000001
  0
CIRCLE
  5
86
330
1F
100
AcDbEntity
  8
0
  6
Continuous
 62
     7
370
    25
100
AcDbCircle
 10
103.6561525943
 20
110.5110902929
 30
0.0
 40
45.00000000000001
  0
LINE
  5
87
330
1F
100
AcDbEntity
  8
0
  6
Continuous
 62
     7
370
    25
100
AcDbLine
 10
245.6561525943
 20
155.5110902929
 30
0.0
 11
245.6561525943
 21
65.5110902929
 31
0.0
  0
INSERT
  5
93
330
1F
100
AcDbEntity
  8
FORMAT
100
AcDbBlockReference
  2
SW_CENTERMARKSYMBOL_0
 10
103.6561525943
 20
110.5110902929
 30
0.0
  0
LINE
  5
94
330
1F
100
AcDbEntity
  8
0
  6
Continuous
 62
     7
370
    25
100
AcDbLine
 10
148.6561525943
 20
395.1000373979
 30
0.0
 11
148.6561525943
 21
495.1000373979
 31
0.0
  0
LINE
  5
95
330
1F
100
AcDbEntity
  8
0
  6
Continuous
 62
     7
370
    25
100
AcDbLine
 10
148.6561525943
 20
205.1000373979
 30
0.0
 11
148.6561525943
 21
305.1000373979
 31
0.0
  0
LINE
  5
96
330
1F
100
AcDbEntity
  8
0
  6
Continuous
 62
     7
370
    25
100
AcDbLine
 10
58.6561525943
 20
495.1000373979
 30
0.0
 11
58.6561525943
 21
205.1000373979
 31
0.0
  0
LINE
  5
97
330
1F
100
AcDbEntity
  8
0
  6
Continuous
 62
     7
370
    25
100
AcDbLine
 10
148.6561525943
 20
305.1000373979
 30
0.0
 11
245.6561525943
 21
305.1000373979
 31
0.0
  0
LINE
  5
98
330
1F
100
AcDbEntity
  8
0
  6
Continuous
 62
     7
370
    25
100
AcDbLine
 10
245.6561525943
 20
395.1000373979
 30
0.0
 11
148.6561525943
 21
395.1000373979
 31
0.0
  0
LINE
  5
99
330
1F
100
AcDbEntity
  8
0
  6
Continuous
 62
     7
370
    25
100
AcDbLine
 10
148.6561525943
 20
395.1000373979
 30
0.0
 11
103.6561525943
 21
350.1000373979
 31
0.0
  0
LINE
  5
9A
330
1F
100
AcDbEntity
  8
0
  6
Continuous
 62
     7
370
    25
100
AcDbLine
 10
103.6561525943
 20
350.1000373979
 30
0.0
 11
148.6561525943
 21
305.1000373979
 31
0.0
  0
LINE
  5
9B
330
1F
100
AcDbEntity
  8
0
  6
Continuous
 62
     7
370
    25
100
AcDbLine
 10
58.6561525943
 20
495.1000373979
 30
0.0
 11
148.6561525943
 21
495.1000373979
 31
0.0
  0
LINE
  5
9C
330
1F
100
AcDbEntity
  8
0
  6
Continuous
 62
     7
370
    25
100
AcDbLine
 10
58.6561525943
 20
205.1000373979
 30
0.0
 11
148.6561525943
 21
205.1000373979
 31
0.0
  0
LINE
  5
9D
330
1F
100
AcDbEntity
  8
0
  6
Continuous
 62
     7
370
    25
100
AcDbLine
 10
245.6561525943
 20
395.1000373979
 30
0.0
 11
245.6561525943
 21
305.1000373979
 31
0.0
  0
LINE
  5
9E
330
1F
100
AcDbEntity
  8
0
  6
Continuous
 62
     7
370
    25
100
AcDbLine
 10
419.7786806872
 20
65.5110902929
 30
0.0
 11
564.7786806872
 21
65.5110902929
 31
0.0
  0
LINE
  5
9F
330
1F
100
AcDbEntity
  8
0
  6
Continuous
 62
     7
370
    25
100
AcDbLine
 10
274.7786806872
 20
65.5110902929
 30
0.0
 11
419.7786806872
 21
65.5110902929
 31
0.0
  0
LINE
  5
A0
330
1F
100
AcDbEntity
  8
0
  6
Continuous
 62
     7
370
    25
100
AcDbLine
 10
419.7786806872
 20
155.5110902929
 30
0.0
 11
274.7786806872
 21
155.5110902929
 31
0.0
  0
LINE
  5
A1
330
1F
100
AcDbEntity
  8
0
  6
Continuous
 62
     7
370
    25
100
AcDbLine
 10
564.7786806872
 20
155.5110902929
 30
0.0
 11
419.7786806872
 21
155.5110902929
 31
0.0
  0
LINE
  5
A2
330
1F
100
AcDbEntity
  8
0
  6
Continuous
 62
     7
370
    25
100
AcDbLine
 10
564.7786806872
 20
155.5110902929
 30
0.0
 11
564.7786806872
 21
65.5110902929
 31
0.0
  0
LINE
  5
A3
330
1F
100
AcDbEntity
  8
0
  6
Continuous
 62
     7
370
    25
100
AcDbLine
 10
274.7786806872
 20
155.5110902929
 30
0.0
 11
274.7786806872
 21
65.5110902929
 31
0.0
  0
LINE
  5
A4
330
1F
100
AcDbEntity
  8
0
  6
Continuous
 62
     7
370
    25
100
AcDbLine
 10
417.0219210058
 20
-109.8166719142
 30
0.0
 11
336.9896092181
 21
-63.6150017493
 31
0.0
  0
LINE
  5
A5
330
1F
100
AcDbEntity
  8
0
  6
Continuous
 62
     7
370
    25
100
AcDbLine
 10
542.0505757622
 20
-181.9941779636
 30
0.0
 11
507.029235663
 21
-161.7767886636
 31
0.0
  0
LINE
  5
A6
330
1F
100
AcDbEntity
  8
0
  6
Continuous
 62
     7
370
    25
100
AcDbLine
 10
291.9932662494
 20
-141.5593993636
 30
0.0
 11
497.0542327935
 21
-259.9385755779
 31
0.0
  0
LINE
  5
A7
330
1F
100
AcDbEntity
  8
0
  6
Continuous
 62
     7
370
    25
100
AcDbLine
 10
462.0182639744
 20
-187.7610695285
 30
0.0
 11
539.9292554186
 21
-142.7840115313
 31
0.0
  0
LINE
  5
A8
330
1F
100
AcDbEntity
  8
0
  6
Continuous
 62
     7
370
    25
100
AcDbLine
 10
494.93291245
 20
-64.8396139171
 30
0.0
 11
417.0219210058
 21
-109.8166719142
 31
0.0
  0
LINE
  5
A9
330
1F
100
AcDbEntity
  8
0
  6
Continuous
 62
     7
370
    25
100
AcDbLine
 10
417.0219210058
 20
-109.8166719142
 30
0.0
 11
417.0219210058
 21
-198.5211251985
 31
0.0
  0
ELLIPSE
  5
AA
330
1F
100
AcDbEntity
  8
0
  6
Continuous
 62
     7
370
    25
100
AcDbEllipse
 10
417.0219210058
 20
-161.7767886636
 30
0.0
 11
63.63961030678933
 21
8.526512829121201E-14
 31
0.0
210
0.0
220
0.0
230
1.0
 40
0.5773815452
 41
4.712388980384698
 42
5.49770587972005
  0
LWPOLYLINE
  5
AB
330
1F
100
AcDbEntity
  8
0
  6
Continuous
 62
     7
370
    25
100
AcDbPolyline
 90
       86
 70
   128
 43
0.0
 10
346.3112428871
 20
-84.2180180405
 10
346.2243485164
 20
-81.5545189695
 10
345.964139991
 20
-79.0058931118
 10
345.5320384797
 20
-76.586060178
 10
344.9304039711
 20
-74.3082364565
 10
344.1625223844
 20
-72.1848626306
 10
343.2325876223
 20
-70.2275358318
 10
342.1456786662
 20
-68.4469463003
 10
340.9077318358
 20
-66.8528189987
 10
339.5255083674
 20
-65.4538604975
 10
338.0065574863
 20
-64.2577114229
 10
336.3591751756
 20
-63.2709047263
 10
334.592358866
 20
-62.4988300038
 10
332.7157582956
 20
-61.9457040598
 10
330.739622806
 20
-61.6145478763
 10
328.674745364
 20
-61.5071701136
 10
326.532403614
 20
-61.6241572318
 10
324.3242982839
 20
-61.9648702878
 10
322.0624892791
 20
-62.5274484251
 10
319.7593298163
 20
-63.3088190369
 10
317.4273989537
 20
-64.304714548
 10
315.079432889
 20
-65.5096957223
 10
312.7282553987
 20
-66.9171813707
 10
310.3867077988
 20
-68.5194842945
 10
308.0675788105
 20
-70.3078532708
 10
305.783534712
 20
-72.2725208484
 10
303.5470501601
 20
-74.4027566943
 10
301.370340058
 20
-76.686926199
 10
299.2652928413
 20
-79.1125540208
 10
297.2434055481
 20
-81.6663922216
 10
295.3157210255
 20
-84.3344926228
 10
293.492767618
 20
-87.1022829852
 10
291.7845016649
 20
-89.9546465977
 10
290.2002531225
 20
-92.8760048392
 10
288.748674607
 20
-95.8504022642
 10
287.4376941368
 20
-98.8615937454
 10
286.2744718326
 20
-101.893133199
 10
285.2653608114
 20
-104.9284634078
 10
284.4158724875
 20
-107.9510064509
 10
283.7306464717
 20
-110.9442542461
 10
283.2134252308
 20
-113.8918587121
 10
282.8670336478
 20
-116.7777210554
 10
282.6933635935
 20
-119.5860796966
 10
282.6933635935
 20
-122.3015963546
 10
282.8670336478
 20
-124.9094398192
 10
283.2134252308
 20
-127.3953669537
 10
283.7306464717
 20
-129.745800486
 10
284.4158724875
 20
-131.9479031634
 10
285.2653608114
 20
-133.9896478646
 10
286.2744718326
 20
-135.8598832881
 10
287.4376941368
 20
-137.5483948565
 10
288.748674607
 20
-139.0459605052
 10
290.2002531225
 20
-140.3444010499
 10
291.7845016649
 20
-141.4366248586
 10
293.492767618
 20
-142.3166665837
 10
295.3157210255
 20
-142.9797197424
 10
297.2434055481
 20
-143.4221629683
 10
299.2652928413
 20
-143.6415797898
 10
301.370340058
 20
-143.6367718286
 10
303.5470501601
 20
-143.4077653438
 10
305.783534712
 20
-142.9558110896
 10
308.0675788105
 20
-142.2833774833
 10
310.3867077988
 20
-141.3941371242
 10
312.7282553987
 20
-140.2929467347
 10
315.079432889
 20
-138.9858206348
 10
317.4273989537
 20
-137.4798978941
 10
319.7593298163
 20
-135.7834033403
 10
322.0624892791
 20
-133.9056026384
 10
324.3242982839
 20
-131.8567516847
 10
326.532403614
 20
-129.6480405925
 10
328.674745364
 20
-127.291532576
 10
330.739622806
 20
-124.8000980648
 10
332.7157582956
 20
-122.1873444102
 10
334.592358866
 20
-119.4675415666
 10
336.3591751756
 20
-116.6555441541
 10
338.0065574863
 20
-113.7667103273
 10
339.5255083674
 20
-110.8168178949
 10
340.9077318358
 20
-107.8219781464
 10
342.1456786662
 20
-104.7985478579
 10
343.2325876223
 20
-101.7630399574
 10
344.1625223844
 20
-98.7320333362
 10
344.9304039711
 20
-95.7220823015
 10
345.5320384797
 20
-92.7496261622
 10
345.964139991
 20
-89.8308994427
 10
346.2243485164
 20
-86.9818432164
 10
346.3112428871
 20
-84.2180180405
  0
LWPOLYLINE
  5
AC
330
1F
100
AcDbEntity
  8
0
  6
Continuous
 62
     7
370
    25
100
AcDbPolyline
 90
       12
 70
   128
 43
0.0
 10
551.3722094312
 20
-202.5971942547
 10
551.2853150605
 20
-199.9336951838
 10
551.0251065351
 20
-197.3850693261
 10
550.5930050238
 20
-194.9652363923
 10
549.9913705152
 20
-192.6874126708
 10
549.2234889284
 20
-190.5640388449
 10
548.2935541664
 20
-188.6067120461
 10
547.2066452103
 20
-186.8261225146
 10
545.9686983799
 20
-185.231995213
 10
544.5864749115
 20
-183.8330367118
 10
543.0675240304
 20
-182.6368876372
 10
542.0505757622
 20
-181.9941779636
  0
LWPOLYLINE
  5
AD
330
1F
100
AcDbEntity
  8
0
  6
Continuous
 62
     7
370
    25
100
AcDbPolyline
 90
       33
 70
   128
 43
0.0
 10
497.0542327935
 20
-259.9385755779
 10
498.5537341621
 20
-260.695842798
 10
500.3766875696
 20
-261.3588959567
 10
502.3043720922
 20
-261.8013391826
 10
504.3262593854
 20
-262.0207560041
 10
506.4313066021
 20
-262.0159480428
 10
508.6080167042
 20
-261.7869415581
 10
510.8445012561
 20
-261.3349873039
 10
513.1285453546
 20
-260.6625536976
 10
515.4476743429
 20
-259.7733133385
 10
517.7892219428
 20
-258.672122949
 10
520.1403994331
 20
-257.3649968491
 10
522.4883654978
 20
-255.8590741084
 10
524.8202963604
 20
-254.1625795546
 10
527.1234558232
 20
-252.2847788527
 10
529.385264828
 20
-250.235927899
 10
531.5933701581
 20
-248.0272168068
 10
533.7357119081
 20
-245.6707087903
 10
535.8005893501
 20
-243.1792742791
 10
537.7767248397
 20
-240.5665206245
 10
539.6533254101
 20
-237.8467177809
 10
541.4201417197
 20
-235.0347203684
 10
543.0675240304
 20
-232.1458865416
 10
544.5864749115
 20
-229.1959941092
 10
545.9686983799
 20
-226.2011543607
 10
547.2066452103
 20
-223.1777240722
 10
548.2935541664
 20
-220.1422161717
 10
549.2234889284
 20
-217.1112095505
 10
549.9913705152
 20
-214.1012585158
 10
550.5930050238
 20
-211.1288023764
 10
551.0251065351
 20
-208.210075657
 10
551.2853150605
 20
-205.3610194307
 10
551.3722094312
 20
-202.5971942547
  0
LWPOLYLINE
  5
AE
330
1F
100
AcDbEntity
  8
0
  6
Continuous
 62
     7
370
    25
100
AcDbPolyline
 90
       81
 70
   128
 43
0.0
 10
342.4928662687
 20
-86.4223199424
 10
342.4065472096
 20
-83.935174747
 10
342.1481222178
 20
-81.5630254932
 10
341.7191845693
 20
-79.3204972699
 10
341.1223788075
 20
-77.2214160094
 10
340.3613844383
 20
-75.2787232455
 10
339.440893245
 20
-73.5043963253
 10
338.366580362
 20
-71.9093745641
 10
337.1450692853
 20
-70.5034918016
 10
335.7838910371
 20
-69.2954157725
 10
334.2914377338
 20
-68.2925946673
 10
332.6769108463
 20
-67.5012112114
 10
330.9502644697
 20
-66.9261445472
 10
329.1221439533
 20
-66.5709401517
 10
327.2038202678
 20
-66.4377879783
 10
325.2071205166
 20
-66.5275089543
 10
323.1443550178
 20
-66.8395499201
 10
321.0282414066
 20
-67.3719870393
 10
318.871826227
 20
-68.1215376602
 10
316.6884044957
 20
-69.0835805538
 10
314.4914377338
 20
-70.2521844058
 10
312.2944709718
 20
-71.6201443848
 10
310.1110492405
 20
-73.1790265628
 10
307.9546340609
 20
-74.9192199126
 10
305.8385204497
 20
-76.8299955637
 10
303.7757549509
 20
-78.8995729486
 10
301.7790551997
 20
-81.1151924347
 10
299.8607315142
 20
-83.463193991
 10
298.0326109978
 20
-85.9291014072
 10
296.3059646212
 20
-88.497711544
 10
294.6914377338
 20
-91.1531880658
 10
293.1989844304
 20
-93.8791590769
 10
291.8378061822
 20
-96.6588180593
 10
290.6162951055
 20
-99.4750274912
 10
289.5419822225
 20
-102.310424505
 10
288.6214910292
 20
-105.1475279352
 10
287.86049666
 20
-107.9688460957
 10
287.2636908982
 20
-110.7569846218
 10
286.8347532497
 20
-113.4947537125
 10
286.5763282579
 20
-116.1652741109
 10
286.4900091988
 20
-118.7520811706
 10
286.5763282579
 20
-121.2392263659
 10
286.8347532497
 20
-123.6113756197
 10
287.2636908982
 20
-125.853903843
 10
287.86049666
 20
-127.9529851036
 10
288.6214910292
 20
-129.8956778674
 10
289.5419822225
 20
-131.6700047877
 10
290.6162951055
 20
-133.2650265488
 10
291.8378061822
 20
-134.6709093113
 10
293.1989844304
 20
-135.8789853404
 10
294.6914377338
 20
-136.8818064457
 10
296.3059646212
 20
-137.6731899015
 10
298.0326109978
 20
-138.2482565658
 10
299.8607315142
 20
-138.6034609612
 10
301.7790551997
 20
-138.7366131347
 10
303.7757549509
 20
-138.6468921587
 10
305.8385204497
 20
-138.3348511929
 10
307.9546340609
 20
-137.8024140736
 10
310.1110492405
 20
-137.0528634527
 10
312.2944709718
 20
-136.0908205591
 10
314.4914377338
 20
-134.9222167071
 10
316.6884044957
 20
-133.5542567281
 10
318.871826227
 20
-131.9953745501
 10
321.0282414066
 20
-130.2551812003
 10
323.1443550178
 20
-128.3444055493
 10
325.2071205166
 20
-126.2748281643
 10
327.2038202678
 20
-124.0592086782
 10
329.1221439533
 20
-121.7112071219
 10
330.9502644697
 20
-119.2452997057
 10
332.6769108463
 20
-116.6766895689
 10
334.2914377338
 20
-114.0212130471
 10
335.7838910371
 20
-111.2952420361
 10
337.1450692853
 20
-108.5155830536
 10
338.366580362
 20
-105.6993736217
 10
339.440893245
 20
-102.8639766079
 10
340.3613844383
 20
-100.0268731777
 10
341.1223788075
 20
-97.2055550172
 10
341.7191845693
 20
-94.4174164911
 10
342.1481222178
 20
-91.6796474004
 10
342.4065472096
 20
-89.0091270021
 10
342.4928662687
 20
-86.4223199424
  0
LWPOLYLINE
  5
AF
330
1F
100
AcDbEntity
  8
0
  6
Continuous
 62
     7
370
    25
100
AcDbPolyline
 90
       86
 70
   128
 43
0.0
 10
549.2508890877
 20
-122.1809952402
 10
549.1639947169
 20
-119.4171700642
 10
548.9037861915
 20
-116.5681138379
 10
548.4716846802
 20
-113.6493871185
 10
547.8700501717
 20
-110.6769309791
 10
547.1021685849
 20
-107.6669799444
 10
546.1722338228
 20
-104.6359733233
 10
545.0853248667
 20
-101.6004654227
 10
543.8473780363
 20
-98.5770351343
 10
542.4651545679
 20
-95.5821953858
 10
540.9462036869
 20
-92.6323029534
 10
539.2988213761
 20
-89.7434691266
 10
537.5320050665
 20
-86.9314717141
 10
535.6554044962
 20
-84.2116688705
 10
533.6792690066
 20
-81.5989152159
 10
531.6143915645
 20
-79.1074807046
 10
529.4720498145
 20
-76.7509726881
 10
527.2639444844
 20
-74.542261596
 10
525.0021354797
 20
-72.4934106423
 10
522.6989760169
 20
-70.6156099404
 10
520.3670451542
 20
-68.9191153866
 10
518.0190790895
 20
-67.4131926459
 10
515.6679015992
 20
-66.106066546
 10
513.3263539994
 20
-65.0048761565
 10
511.007225011
 20
-64.1156357974
 10
508.7231809125
 20
-63.4432021911
 10
506.4866963606
 20
-62.9912479369
 10
504.3099862585
 20
-62.7622414521
 10
502.2049390418
 20
-62.7574334908
 10
500.1830517486
 20
-62.9768503124
 10
498.255367226
 20
-63.4192935383
 10
496.4324138185
 20
-64.082346697
 10
494.7241478654
 20
-64.9623884221
 10
493.139899323
 20
-66.0546122308
 10
491.6883208075
 20
-67.3530527755
 10
490.3773403373
 20
-68.8506184242
 10
489.2141180332
 20
-70.5391299926
 10
488.2050070119
 20
-72.4093654161
 10
487.3555186881
 20
-74.4511101173
 10
486.6702926722
 20
-76.6532127946
 10
486.1530714313
 20
-79.003646327
 10
485.8066798484
 20
-81.4895734615
 10
485.6330097941
 20
-84.097416926
 10
485.6330097941
 20
-86.8129335841
 10
485.8066798484
 20
-89.6212922253
 10
486.1530714313
 20
-92.5071545685
 10
486.6702926722
 20
-95.4547590345
 10
487.3555186881
 20
-98.4480068298
 10
488.2050070119
 20
-101.4705498728
 10
489.2141180332
 20
-104.5058800817
 10
490.3773403373
 20
-107.5374195353
 10
491.6883208075
 20
-110.5486110164
 10
493.139899323
 20
-113.5230084414
 10
494.7241478654
 20
-116.444366683
 10
496.4324138185
 20
-119.2967302955
 10
498.255367226
 20
-122.0645206579
 10
500.1830517486
 20
-124.7326210591
 10
502.2049390418
 20
-127.2864592599
 10
504.3099862585
 20
-129.7120870817
 10
506.4866963606
 20
-131.9962565864
 10
508.7231809125
 20
-134.1264924323
 10
511.007225011
 20
-136.0911600099
 10
513.3263539994
 20
-137.8795289862
 10
515.6679015992
 20
-139.48183191
 10
518.0190790895
 20
-140.8893175583
 10
520.3670451542
 20
-142.0942987327
 10
522.6989760169
 20
-143.0901942437
 10
525.0021354797
 20
-143.8715648556
 10
527.2639444844
 20
-144.4341429928
 10
529.4720498145
 20
-144.7748560489
 10
531.6143915645
 20
-144.891843167
 10
533.6792690066
 20
-144.7844654043
 10
535.6554044962
 20
-144.4533092209
 10
537.5320050665
 20
-143.9001832768
 10
539.2988213761
 20
-143.1281085543
 10
540.9462036869
 20
-142.1413018578
 10
542.4651545679
 20
-140.9451527832
 10
543.8473780363
 20
-139.546194282
 10
545.0853248667
 20
-137.9520669803
 10
546.1722338228
 20
-136.1714774488
 10
547.1021685849
 20
-134.21415065
 10
547.8700501717
 20
-132.0907768241
 10
548.4716846802
 20
-129.8129531027
 10
548.9037861915
 20
-127.3931201689
 10
549.1639947169
 20
-124.8444943112
 10
549.2508890877
 20
-122.1809952402
  0
LWPOLYLINE
  5
B0
330
1F
100
AcDbEntity
  8
0
  6
Continuous
 62
     7
370
    25
100
AcDbPolyline
 90
       81
 70
   128
 43
0.0
 10
545.4325124693
 20
-119.9766933383
 10
545.3461934101
 20
-117.3898862786
 10
545.0877684183
 20
-114.7193658803
 10
544.6588307699
 20
-111.9815967896
 10
544.0620250081
 20
-109.1934582634
 10
543.3010306388
 20
-106.3721401029
 10
542.3805394456
 20
-103.5350366727
 10
541.3062265625
 20
-100.699639659
 10
540.0847154859
 20
-97.883430227
 10
538.7235372376
 20
-95.1037712446
 10
537.2310839343
 20
-92.3778002336
 10
535.6165570468
 20
-89.7223237118
 10
533.8899106703
 20
-87.1537135749
 10
532.0617901538
 20
-84.6878061588
 10
530.1434664683
 20
-82.3398046024
 10
528.1467667172
 20
-80.1241851163
 10
526.0840012184
 20
-78.0546077314
 10
523.9678876071
 20
-76.1438320804
 10
521.8114724275
 20
-74.4036387305
 10
519.6280506962
 20
-72.8447565526
 10
517.4310839343
 20
-71.4767965735
 10
515.2341171723
 20
-70.3081927215
 10
513.0506954411
 20
-69.3461498279
 10
510.8942802615
 20
-68.5965992071
 10
508.7781666502
 20
-68.0641620878
 10
506.7154011514
 20
-67.752121122
 10
504.7187014003
 20
-67.662400146
 10
502.8003777148
 20
-67.7955523194
 10
500.9722571983
 20
-68.1507567149
 10
499.2456108218
 20
-68.7258233791
 10
497.6310839343
 20
-69.517206835
 10
496.138630631
 20
-70.5200279403
 10
494.7774523827
 20
-71.7281039694
 10
493.5559413061
 20
-73.1339867318
 10
492.481628423
 20
-74.729008493
 10
491.5611372297
 20
-76.5033354132
 10
490.8001428605
 20
-78.4460281771
 10
490.2033370987
 20
-80.5451094377
 10
489.7743994503
 20
-82.787637661
 10
489.5159744585
 20
-85.1597869148
 10
489.4296553993
 20
-87.6469321101
 10
489.5159744585
 20
-90.2337391698
 10
489.7743994503
 20
-92.9042595681
 10
490.2033370987
 20
-95.6420286588
 10
490.8001428605
 20
-98.430167185
 10
491.5611372297
 20
-101.2514853455
 10
492.481628423
 20
-104.0885887757
 10
493.5559413061
 20
-106.9239857894
 10
494.7774523827
 20
-109.7401952214
 10
496.138630631
 20
-112.5198542038
 10
497.6310839343
 20
-115.2458252148
 10
499.2456108218
 20
-117.9013017366
 10
500.9722571983
 20
-120.4699118735
 10
502.8003777148
 20
-122.9358192896
 10
504.7187014003
 20
-125.283820846
 10
506.7154011514
 20
-127.4994403321
 10
508.7781666502
 20
-129.569017717
 10
510.8942802615
 20
-131.479793368
 10
513.0506954411
 20
-133.2199867179
 10
515.2341171723
 20
-134.7788688958
 10
517.4310839343
 20
-136.1468288749
 10
519.6280506962
 20
-137.3154327269
 10
521.8114724275
 20
-138.2774756205
 10
523.9678876071
 20
-139.0270262413
 10
526.0840012184
 20
-139.5594633606
 10
528.1467667172
 20
-139.8715043264
 10
530.1434664683
 20
-139.9612253024
 10
532.0617901538
 20
-139.828073129
 10
533.8899106703
 20
-139.4728687335
 10
535.6165570468
 20
-138.8978020693
 10
537.2310839343
 20
-138.1064186134
 10
538.7235372376
 20
-137.1035975081
 10
540.0847154859
 20
-135.895521479
 10
541.3062265625
 20
-134.4896387166
 10
542.3805394456
 20
-132.8946169554
 10
543.3010306388
 20
-131.1202900352
 10
544.0620250081
 20
-129.1775972713
 10
544.6588307699
 20
-127.0785160107
 10
545.0877684183
 20
-124.8359877874
 10
545.3461934101
 20
-122.4638385336
 10
545.4325124693
 20
-119.9766933383
  0
LINE
  5
B1
330
1F
100
AcDbEntity
  8
0
  6
Continuous
 62
     7
370
    25
100
AcDbLine
 10
-133.6365775469
 20
155.5110902929
 30
0.0
 11
-278.6365775469
 21
155.5110902929
 31
0.0
  0
LINE
  5
B2
330
1F
100
AcDbEntity
  8
0
  6
Continuous
 62
     7
370
    25
100
AcDbLine
 10
11.3634224531
 20
155.5110902929
 30
0.0
 11
-133.6365775469
 21
155.5110902929
 31
0.0
  0
LINE
  5
B3
330
1F
100
AcDbEntity
  8
0
  6
Continuous
 62
     7
370
    25
100
AcDbLine
 10
-133.6365775469
 20
65.5110902929
 30
0.0
 11
11.3634224531
 21
65.5110902929
 31
0.0
  0
LINE
  5
B4
330
1F
100
AcDbEntity
  8
0
  6
Continuous
 62
     7
370
    25
100
AcDbLine
 10
-278.6365775469
 20
65.5110902929
 30
0.0
 11
-133.6365775469
 21
65.5110902929
 31
0.0
  0
CIRCLE
  5
B5
330
1F
100
AcDbEntity
  8
0
  6
Continuous
 62
     7
370
    25
100
AcDbCircle
 10
-133.6365775469
 20
110.5110902929
 30
0.0
 40
39.60000000000001
  0
CIRCLE
  5
B6
330
1F
100
AcDbEntity
  8
0
  6
Continuous
 62
     7
370
    25
100
AcDbCircle
 10
-133.6365775469
 20
110.5110902929
 30
0.0
 40
45.00000000000003
  0
LINE
  5
B7
330
1F
100
AcDbEntity
  8
0
  6
Continuous
 62
     7
370
    25
100
AcDbLine
 10
-278.6365775469
 20
110.5110902929
 30
0.0
 11
-278.6365775469
 21
155.5110902929
 31
0.0
  0
LINE
  5
B8
330
1F
100
AcDbEntity
  8
0
  6
Continuous
 62
     7
370
    25
100
AcDbLine
 10
-278.6365775469
 20
65.5110902929
 30
0.0
 11
-278.6365775469
 21
110.5110902929
 31
0.0
  0
LINE
  5
B9
330
1F
100
AcDbEntity
  8
0
  6
Continuous
 62
     7
370
    25
100
AcDbLine
 10
11.3634224531
 20
110.5110902929
 30
0.0
 11
11.3634224531
 21
155.5110902929
 31
0.0
  0
LINE
  5
BA
330
1F
100
AcDbEntity
  8
0
  6
Continuous
 62
     7
370
    25
100
AcDbLine
 10
11.3634224531
 20
65.5110902929
 30
0.0
 11
11.3634224531
 21
110.5110902929
 31
0.0
  0
INSERT
  5
C6
330
1F
100
AcDbEntity
  8
FORMAT
100
AcDbBlockReference
  2
SW_CENTERMARKSYMBOL_1
 10
-133.6365775469
 20
110.5110902929
 30
0.0
  0
LINE
  5
C7
330
1F
100
AcDbEntity
  8
0
  6
Continuous
 62
     7
370
    25
100
AcDbLine
 10
58.6561525943
 20
8.7603112166
 30
0.0
 11
58.6561525943
 21
-281.2396887834
 31
0.0
  0
LINE
  5
C8
330
1F
100
AcDbEntity
  8
0
  6
Continuous
 62
     7
370
    25
100
AcDbLine
 10
148.6561525943
 20
-91.2396887834
 30
0.0
 11
148.6561525943
 21
8.7603112166
 31
0.0
  0
LINE
  5
C9
330
1F
100
AcDbEntity
  8
0
  6
Continuous
 62
     7
370
    25
100
AcDbLine
 10
148.6561525943
 20
-281.2396887834
 30
0.0
 11
148.6561525943
 21
-181.2396887834
 31
0.0
  0
LINE
  5
CA
330
1F
100
AcDbEntity
  8
0
  6
Continuous
 62
     7
370
    25
100
AcDbLine
 10
148.6561525943
 20
-181.2396887834
 30
0.0
 11
245.6561525943
 21
-181.2396887834
 31
0.0
  0
LINE
  5
CB
330
1F
100
AcDbEntity
  8
0
  6
Continuous
 62
     7
370
    25
100
AcDbLine
 10
245.6561525943
 20
-91.2396887834
 30
0.0
 11
148.6561525943
 21
-91.2396887834
 31
0.0
  0
LINE
  5
CC
330
1F
100
AcDbEntity
  8
0
  6
Continuous
 62
     7
370
    25
100
AcDbLine
 10
103.6561525943
 20
-136.2396887834
 30
0.0
 11
148.6561525943
 21
-181.2396887834
 31
0.0
  0
LINE
  5
CD
330
1F
100
AcDbEntity
  8
0
  6
Continuous
 62
     7
370
    25
100
AcDbLine
 10
148.6561525943
 20
-91.2396887834
 30
0.0
 11
103.6561525943
 21
-136.2396887834
 31
0.0
  0
LINE
  5
CE
330
1F
100
AcDbEntity
  8
0
  6
Continuous
 62
     7
370
    25
100
AcDbLine
 10
148.6561525943
 20
-281.2396887834
 30
0.0
 11
58.6561525943
 21
-281.2396887834
 31
0.0
  0
LINE
  5
CF
330
1F
100
AcDbEntity
  8
0
  6
Continuous
 62
     7
370
    25
100
AcDbLine
 10
148.6561525943
 20
8.7603112166
 30
0.0
 11
58.6561525943
 21
8.7603112166
 31
0.0
  0
LINE
  5
D0
330
1F
100
AcDbEntity
  8
0
  6
Continuous
 62
     7
370
    25
100
AcDbLine
 10
245.6561525943
 20
-91.2396887834
 30
0.0
 11
245.6561525943
 21
-181.2396887834
 31
0.0
  0
ENDSEC
  0
SECTION
  2
OBJECTS
  0
DICTIONARY
  5
C
330
0
100
AcDbDictionary
281
     1
  3
ACAD_GROUP
350
D
  3
ACAD_LAYOUT
350
1A
  3
ACAD_MLINESTYLE
350
17
  3
ACAD_PLOTSETTINGS
350
19
  3
ACAD_PLOTSTYLENAME
350
E
  3
ACAD_SCALELIST
350
47
  3
DWGPROPS
350
D1
  0
DICTIONARY
  5
D
102
{ACAD_REACTORS
330
C
102
}
330
C
100
AcDbDictionary
281
     1
  0
DICTIONARY
  5
1A
102
{ACAD_REACTORS
330
C
102
}
330
C
100
AcDbDictionary
281
     1
  3
Layout1
350
1E
  3
Layout2
350
26
  3
Model
350
22
  0
DICTIONARY
  5
17
102
{ACAD_REACTORS
330
C
102
}
330
C
100
AcDbDictionary
281
     1
  3
Standard
350
18
  0
DICTIONARY
  5
19
102
{ACAD_REACTORS
330
C
102
}
330
C
100
AcDbDictionary
281
     1
  0
ACDBDICTIONARYWDFLT
  5
E
102
{ACAD_REACTORS
330
C
102
}
330
C
100
AcDbDictionary
281
     1
  3
Normal
350
F
100
AcDbDictionaryWithDefault
340
F
  0
DICTIONARY
  5
47
102
{ACAD_REACTORS
330
C
102
}
330
C
100
AcDbDictionary
281
     1
  3
A0
350
48
  3
A1
350
49
  3
A2
350
4A
  3
A3
350
4B
  3
A4
350
4C
  3
A5
350
4D
  3
A6
350
4E
  3
A7
350
4F
  3
A8
350
50
  3
A9
350
51
  3
B0
350
52
  3
B1
350
53
  3
B2
350
54
  3
B3
350
55
  3
B4
350
56
  3
B5
350
57
  3
B6
350
58
  3
B7
350
59
  3
B8
350
5A
  3
B9
350
5B
  3
C0
350
5C
  3
C1
350
5D
  3
C2
350
5E
  3
C3
350
5F
  3
C4
350
60
  3
C5
350
61
  3
C6
350
62
  3
C7
350
63
  3
C8
350
64
  3
C9
350
65
  3
D0
350
66
  3
D1
350
67
  3
D2
350
68
  0
XRECORD
  5
D1
102
{ACAD_REACTORS
330
C
102
}
330
C
100
AcDbXrecord
280
     1
  1
DWGPROPS COOKIE
  2

  3

  4

  6

  7

  8
b.kav
  9

300
=
301
=
302
=
303
=
304
=
305
=
306
=
307
=
308
=
309
=
 40
0.0
 41
2459935.575499653
 42
2459935.575499838
  1

 90
        0
  0
LAYOUT
  5
1E
102
{ACAD_REACTORS
330
1A
102
}
330
1A
100
AcDbPlotSettings
  1

  2
none_device
  4

  6

 40
0.0
 41
0.0
 42
0.0
 43
0.0
 44
0.0
 45
0.0
 46
0.0
 47
0.0
 48
0.0
 49
0.0
140
0.0
141
0.0
142
1.0
143
1.0
 70
   688
 72
     1
 73
     0
 74
     5
  7

 75
    16
147
1.0
148
0.0
149
0.0
100
AcDbLayout
  1
Layout1
 70
     1
 71
     1
 10
0.0
 20
0.0
 11
420.0
 21
297.0
 12
0.0
 22
0.0
 32
0.0
 14
1.0000000000E+20
 24
1.0000000000E+20
 34
1.0000000000E+20
 15
-1.0000000000E+20
 25
-1.0000000000E+20
 35
-1.0000000000E+20
146
0.0
 13
0.0
 23
0.0
 33
0.0
 16
1.0
 26
0.0
 36
0.0
 17
0.0
 27
1.0
 37
0.0
 76
     0
330
1B
  0
LAYOUT
  5
26
102
{ACAD_REACTORS
330
1A
102
}
330
1A
100
AcDbPlotSettings
  1

  2
none_device
  4

  6

 40
0.0
 41
0.0
 42
0.0
 43
0.0
 44
0.0
 45
0.0
 46
0.0
 47
0.0
 48
0.0
 49
0.0
140
0.0
141
0.0
142
1.0
143
1.0
 70
   688
 72
     1
 73
     0
 74
     5
  7

 75
    16
147
1.0
148
0.0
149
0.0
100
AcDbLayout
  1
Layout2
 70
     1
 71
     2
 10
0.0
 20
0.0
 11
0.0
 21
0.0
 12
0.0
 22
0.0
 32
0.0
 14
0.0
 24
0.0
 34
0.0
 15
0.0
 25
0.0
 35
0.0
146
0.0
 13
0.0
 23
0.0
 33
0.0
 16
1.0
 26
0.0
 36
0.0
 17
0.0
 27
1.0
 37
0.0
 76
     0
330
23
  0
LAYOUT
  5
22
102
{ACAD_REACTORS
330
1A
102
}
330
1A
100
AcDbPlotSettings
  1

  2
none_device
  4
Letter_(8.50_x_11.00_Inches)
  6

 40
6.35
 41
6.35
 42
6.35000508
 43
6.35000508
 44
215.9
 45
279.4
 46
0.0
 47
0.0
 48
0.0
 49
0.0
140
0.0
141
0.0
142
1.0
143
1.0
 70
  1712
 72
     1
 73
     0
 74
     0
  7

 75
     0
147
1.0
148
0.0
149
0.0
100
AcDbLayout
  1
Model
 70
     1
 71
     0
 10
0.0
 20
0.0
 11
279.4
 21
215.9
 12
0.0
 22
0.0
 32
0.0
 14
0.0
 24
0.0
 34
0.0
 15
279.4
 25
215.9
 35
0.0
146
0.0
 13
0.0
 23
0.0
 33
0.0
 16
1.0
 26
0.0
 36
0.0
 17
0.0
 27
1.0
 37
0.0
 76
     0
330
1F
331
29
  0
MLINESTYLE
  5
18
102
{ACAD_REACTORS
330
17
102
}
330
17
100
AcDbMlineStyle
  2
Standard
 70
     0
  3

 62
   256
 51
90.0
 52
90.0
 71
     2
 49
0.5
 62
   256
  6
BYLAYER
 49
-0.5
 62
   256
  6
BYLAYER
  0
ACDBPLACEHOLDER
  5
F
102
{ACAD_REACTORS
330
E
102
}
330
E
  0
SCALE
  5
48
102
{ACAD_REACTORS
330
47
102
}
330
47
100
AcDbScale
 70
     0
300
1:1
140
1.0
141
1.0
290
     1
  0
SCALE
  5
49
102
{ACAD_REACTORS
330
47
102
}
330
47
100
AcDbScale
 70
     0
300
1:2
140
1.0
141
2.0
290
     0
  0
SCALE
  5
4A
102
{ACAD_REACTORS
330
47
102
}
330
47
100
AcDbScale
 70
     0
300
1:4
140
1.0
141
4.0
290
     0
  0
SCALE
  5
4B
102
{ACAD_REACTORS
330
47
102
}
330
47
100
AcDbScale
 70
     0
300
1:5
140
1.0
141
5.0
290
     0
  0
SCALE
  5
4C
102
{ACAD_REACTORS
330
47
102
}
330
47
100
AcDbScale
 70
     0
300
1:8
140
1.0
141
8.0
290
     0
  0
SCALE
  5
4D
102
{ACAD_REACTORS
330
47
102
}
330
47
100
AcDbScale
 70
     0
300
1:10
140
1.0
141
10.0
290
     0
  0
SCALE
  5
4E
102
{ACAD_REACTORS
330
47
102
}
330
47
100
AcDbScale
 70
     0
300
1:16
140
1.0
141
16.0
290
     0
  0
SCALE
  5
4F
102
{ACAD_REACTORS
330
47
102
}
330
47
100
AcDbScale
 70
     0
300
1:20
140
1.0
141
20.0
290
     0
  0
SCALE
  5
50
102
{ACAD_REACTORS
330
47
102
}
330
47
100
AcDbScale
 70
     0
300
1:30
140
1.0
141
30.0
290
     0
  0
SCALE
  5
51
102
{ACAD_REACTORS
330
47
102
}
330
47
100
AcDbScale
 70
     0
300
1:40
140
1.0
141
40.0
290
     0
  0
SCALE
  5
52
102
{ACAD_REACTORS
330
47
102
}
330
47
100
AcDbScale
 70
     0
300
1:50
140
1.0
141
50.0
290
     0
  0
SCALE
  5
53
102
{ACAD_REACTORS
330
47
102
}
330
47
100
AcDbScale
 70
     0
300
1:100
140
1.0
141
100.0
290
     0
  0
SCALE
  5
54
102
{ACAD_REACTORS
330
47
102
}
330
47
100
AcDbScale
 70
     0
300
2:1
140
2.0
141
1.0
290
     0
  0
SCALE
  5
55
102
{ACAD_REACTORS
330
47
102
}
330
47
100
AcDbScale
 70
     0
300
4:1
140
4.0
141
1.0
290
     0
  0
SCALE
  5
56
102
{ACAD_REACTORS
330
47
102
}
330
47
100
AcDbScale
 70
     0
300
8:1
140
8.0
141
1.0
290
     0
  0
SCALE
  5
57
102
{ACAD_REACTORS
330
47
102
}
330
47
100
AcDbScale
 70
     0
300
10:1
140
10.0
141
1.0
290
     0
  0
SCALE
  5
58
102
{ACAD_REACTORS
330
47
102
}
330
47
100
AcDbScale
 70
     0
300
100:1
140
100.0
141
1.0
290
     0
  0
SCALE
  5
59
102
{ACAD_REACTORS
330
47
102
}
330
47
100
AcDbScale
 70
     0
300
1/128" = 1'-0"
140
0.0078125
141
12.0
290
     0
  0
SCALE
  5
5A
102
{ACAD_REACTORS
330
47
102
}
330
47
100
AcDbScale
 70
     0
300
1/64" = 1'-0"
140
0.015625
141
12.0
290
     0
  0
SCALE
  5
5B
102
{ACAD_REACTORS
330
47
102
}
330
47
100
AcDbScale
 70
     0
300
1/32" = 1'-0"
140
0.03125
141
12.0
290
     0
  0
SCALE
  5
5C
102
{ACAD_REACTORS
330
47
102
}
330
47
100
AcDbScale
 70
     0
300
1/16" = 1'-0"
140
0.0625
141
12.0
290
     0
  0
SCALE
  5
5D
102
{ACAD_REACTORS
330
47
102
}
330
47
100
AcDbScale
 70
     0
300
3/32" = 1'-0"
140
0.09375
141
12.0
290
     0
  0
SCALE
  5
5E
102
{ACAD_REACTORS
330
47
102
}
330
47
100
AcDbScale
 70
     0
300
1/8" = 1'-0"
140
0.125
141
12.0
290
     0
  0
SCALE
  5
5F
102
{ACAD_REACTORS
330
47
102
}
330
47
100
AcDbScale
 70
     0
300
3/16" = 1'-0"
140
0.1875
141
12.0
290
     0
  0
SCALE
  5
60
102
{ACAD_REACTORS
330
47
102
}
330
47
100
AcDbScale
 70
     0
300
1/4" = 1'-0"
140
0.25
141
12.0
290
     0
  0
SCALE
  5
61
102
{ACAD_REACTORS
330
47
102
}
330
47
100
AcDbScale
 70
     0
300
3/8" = 1'-0"
140
0.375
141
12.0
290
     0
  0
SCALE
  5
62
102
{ACAD_REACTORS
330
47
102
}
330
47
100
AcDbScale
 70
     0
300
1/2" = 1'-0"
140
0.5
141
12.0
290
     0
  0
SCALE
  5
63
102
{ACAD_REACTORS
330
47
102
}
330
47
100
AcDbScale
 70
     0
300
3/4" = 1'-0"
140
0.75
141
12.0
290
     0
  0
SCALE
  5
64
102
{ACAD_REACTORS
330
47
102
}
330
47
100
AcDbScale
 70
     0
300
1" = 1'-0"
140
1.0
141
12.0
290
     0
  0
SCALE
  5
65
102
{ACAD_REACTORS
330
47
102
}
330
47
100
AcDbScale
 70
     0
300
1-1/2" = 1'-0"
140
1.5
141
12.0
290
     0
  0
SCALE
  5
66
102
{ACAD_REACTORS
330
47
102
}
330
47
100
AcDbScale
 70
     0
300
3" = 1'-0"
140
3.0
141
12.0
290
     0
  0
SCALE
  5
67
102
{ACAD_REACTORS
330
47
102
}
330
47
100
AcDbScale
 70
     0
300
6" = 1'-0"
140
6.0
141
12.0
290
     0
  0
SCALE
  5
68
102
{ACAD_REACTORS
330
47
102
}
330
47
100
AcDbScale
 70
     0
300
1'-0" = 1'-0"
140
12.0
141
12.0
290
     0
  0
ENDSEC
  0
EOF
